  0
SECTION
  2
HEADER
  9
$ACADVER
  1
AC1015
  9
$ACADMAINTVER
 70
     6
  9
$DWGCODEPAGE
  3
ANSI_1254
  9
$INSBASE
 10
0.0
 20
0.0
 30
0.0
  9
$EXTMIN
 10
0.0
 20
0.0
 30
0.0
  9
$EXTMAX
 10
279.4
 20
215.9
 30
0.0
  9
$LIMMIN
 10
0.0
 20
0.0
  9
$LIMMAX
 10
279.4
 20
215.9
  9
$ORTHOMODE
 70
     0
  9
$REGENMODE
 70
     1
  9
$FILLMODE
 70
     1
  9
$QTEXTMODE
 70
     0
  9
$MIRRTEXT
 70
     1
  9
$LTSCALE
 40
1.0
  9
$ATTMODE
 70
     1
  9
$TEXTSIZE
 40
3.5
  9
$TRACEWID
 40
1.0
  9
$TEXTSTYLE
  7
Standard
  9
$CLAYER
  8
0
  9
$CELTYPE
  6
ByLayer
  9
$CECOLOR
 62
   256
  9
$CELTSCALE
 40
1.0
  9
$DISPSILH
 70
     0
  9
$DIMSCALE
 40
1.0
  9
$DIMASZ
 40
3.5
  9
$DIMEXO
 40
1.0
  9
$DIMDLI
 40
3.75
  9
$DIMRND
 40
0.0
  9
$DIMDLE
 40
0.0
  9
$DIMEXE
 40
1.0
  9
$DIMTP
 40
0.0
  9
$DIMTM
 40
0.0
  9
$DIMTXT
 40
3.5
  9
$DIMCEN
 40
2.5
  9
$DIMTSZ
 40
0.0
  9
$DIMTOL
 70
     0
  9
$DIMLIM
 70
     0
  9
$DIMTIH
 70
     1
  9
$DIMTOH
 70
     1
  9
$DIMSE1
 70
     0
  9
$DIMSE2
 70
     0
  9
$DIMTAD
 70
     1
  9
$DIMZIN
 70
     0
  9
$DIMBLK
  1

  9
$DIMASO
 70
     1
  9
$DIMSHO
 70
     1
  9
$DIMPOST
  1

  9
$DIMAPOST
  1

  9
$DIMALT
 70
     0
  9
$DIMALTD
 70
     3
  9
$DIMALTF
 40
0.0393700787
  9
$DIMLFAC
 40
1.0
  9
$DIMTOFL
 70
     1
  9
$DIMTVP
 40
0.0
  9
$DIMTIX
 70
     0
  9
$DIMSOXD
 70
     0
  9
$DIMSAH
 70
     0
  9
$DIMBLK1
  1

  9
$DIMBLK2
  1

  9
$DIMSTYLE
  2
ISO-25
  9
$DIMCLRD
 70
     0
  9
$DIMCLRE
 70
     0
  9
$DIMCLRT
 70
     0
  9
$DIMTFAC
 40
1.0
  9
$DIMGAP
 40
1.524
  9
$DIMJUST
 70
     0
  9
$DIMSD1
 70
     0
  9
$DIMSD2
 70
     0
  9
$DIMTOLJ
 70
     0
  9
$DIMTZIN
 70
     0
  9
$DIMALTZ
 70
     0
  9
$DIMALTTZ
 70
     0
  9
$DIMUPT
 70
     0
  9
$DIMDEC
 70
     2
  9
$DIMTDEC
 70
     2
  9
$DIMALTU
 70
     2
  9
$DIMALTTD
 70
     3
  9
$DIMTXSTY
  7
Standard
  9
$DIMAUNIT
 70
     0
  9
$DIMADEC
 70
     2
  9
$DIMALTRND
 40
0.0
  9
$DIMAZIN
 70
     0
  9
$DIMDSEP
 70
    44
  9
$DIMATFIT
 70
     3
  9
$DIMFRAC
 70
     0
  9
$DIMLDRBLK
  1

  9
$DIMLUNIT
 70
     2
  9
$DIMLWD
 70
    -2
  9
$DIMLWE
 70
    -2
  9
$DIMTMOVE
 70
     0
  9
$LUNITS
 70
     2
  9
$LUPREC
 70
     2
  9
$SKETCHINC
 40
1.0
  9
$FILLETRAD
 40
10.0
  9
$AUNITS
 70
     0
  9
$AUPREC
 70
     2
  9
$MENU
  1
.
  9
$ELEVATION
 40
0.0
  9
$PELEVATION
 40
0.0
  9
$THICKNESS
 40
0.0
  9
$LIMCHECK
 70
     0
  9
$CHAMFERA
 40
0.0
  9
$CHAMFERB
 40
0.0
  9
$CHAMFERC
 40
0.0
  9
$CHAMFERD
 40
0.0
  9
$SKPOLY
 70
     0
  9
$TDCREATE
 40
2458985.705476806
  9
$TDUCREATE
 40
2458985.580476806
  9
$TDUPDATE
 40
2458985.705477164
  9
$TDUUPDATE
 40
2458985.580477164
  9
$TDINDWG
 40
0.0000000116
  9
$TDUSRTIMER
 40
0.0000000116
  9
$USRTIMER
 70
     1
  9
$ANGBASE
 50
0.0
  9
$ANGDIR
 70
     0
  9
$PDMODE
 70
     0
  9
$PDSIZE
 40
-1.0
  9
$PLINEWID
 40
0.0
  9
$SPLFRAME
 70
     0
  9
$SPLINETYPE
 70
     6
  9
$SPLINESEGS
 70
     8
  9
$HANDSEED
  5
EE
  9
$SURFTAB1
 70
     6
  9
$SURFTAB2
 70
     6
  9
$SURFTYPE
 70
     6
  9
$SURFU
 70
     6
  9
$SURFV
 70
     6
  9
$UCSBASE
  2

  9
$UCSNAME
  2

  9
$UCSORG
 10
0.0
 20
0.0
 30
0.0
  9
$UCSXDIR
 10
1.0
 20
0.0
 30
0.0
  9
$UCSYDIR
 10
0.0
 20
1.0
 30
0.0
  9
$UCSORTHOREF
  2

  9
$UCSORTHOVIEW
 70
     0
  9
$UCSORGTOP
 10
0.0
 20
0.0
 30
0.0
  9
$UCSORGBOTTOM
 10
0.0
 20
0.0
 30
0.0
  9
$UCSORGLEFT
 10
0.0
 20
0.0
 30
0.0
  9
$UCSORGRIGHT
 10
0.0
 20
0.0
 30
0.0
  9
$UCSORGFRONT
 10
0.0
 20
0.0
 30
0.0
  9
$UCSORGBACK
 10
0.0
 20
0.0
 30
0.0
  9
$PUCSBASE
  2

  9
$PUCSNAME
  2

  9
$PUCSORG
 10
0.0
 20
0.0
 30
0.0
  9
$PUCSXDIR
 10
1.0
 20
0.0
 30
0.0
  9
$PUCSYDIR
 10
0.0
 20
1.0
 30
0.0
  9
$PUCSORTHOREF
  2

  9
$PUCSORTHOVIEW
 70
     0
  9
$PUCSORGTOP
 10
0.0
 20
0.0
 30
0.0
  9
$PUCSORGBOTTOM
 10
0.0
 20
0.0
 30
0.0
  9
$PUCSORGLEFT
 10
0.0
 20
0.0
 30
0.0
  9
$PUCSORGRIGHT
 10
0.0
 20
0.0
 30
0.0
  9
$PUCSORGFRONT
 10
0.0
 20
0.0
 30
0.0
  9
$PUCSORGBACK
 10
0.0
 20
0.0
 30
0.0
  9
$USERI1
 70
     0
  9
$USERI2
 70
     0
  9
$USERI3
 70
     0
  9
$USERI4
 70
     0
  9
$USERI5
 70
     0
  9
$USERR1
 40
0.0
  9
$USERR2
 40
0.0
  9
$USERR3
 40
0.0
  9
$USERR4
 40
0.0
  9
$USERR5
 40
0.0
  9
$WORLDVIEW
 70
     1
  9
$SHADEDGE
 70
     3
  9
$SHADEDIF
 70
    70
  9
$TILEMODE
 70
     1
  9
$MAXACTVP
 70
    64
  9
$PINSBASE
 10
0.0
 20
0.0
 30
0.0
  9
$PLIMCHECK
 70
     0
  9
$PEXTMIN
 10
1.0000000000E+20
 20
1.0000000000E+20
 30
1.0000000000E+20
  9
$PEXTMAX
 10
-1.0000000000E+20
 20
-1.0000000000E+20
 30
-1.0000000000E+20
  9
$PLIMMIN
 10
0.0
 20
0.0
  9
$PLIMMAX
 10
420.0
 20
297.0
  9
$UNITMODE
 70
     0
  9
$VISRETAIN
 70
     1
  9
$PLINEGEN
 70
     0
  9
$PSLTSCALE
 70
     1
  9
$TREEDEPTH
 70
  3020
  9
$CMLSTYLE
  2
Standard
  9
$CMLJUST
 70
     0
  9
$CMLSCALE
 40
20.0
  9
$PROXYGRAPHICS
 70
     1
  9
$MEASUREMENT
 70
     1
  9
$CELWEIGHT
370
    -1
  9
$ENDCAPS
280
     0
  9
$JOINSTYLE
280
     0
  9
$LWDISPLAY
290
     1
  9
$INSUNITS
 70
     4
  9
$HYPERLINKBASE
  1

  9
$STYLESHEET
  1

  9
$XEDIT
290
     1
  9
$CEPSNTYPE
380
     0
  9
$PSTYLEMODE
290
     1
  9
$FINGERPRINTGUID
  2
{a771c8c0-7e0b-49b6-a56a-695d6bbe10cd}
  9
$VERSIONGUID
  2
{FAEB1C32-E019-11D5-929B-00C0DF256EC4}
  9
$EXTNAMES
290
     1
  9
$PSVPSCALE
 40
0.0
  9
$OLESTARTUP
290
     0
  0
ENDSEC
  0
SECTION
  2
CLASSES
  0
CLASS
  1
ACDBDICTIONARYWDFLT
  2
AcDbDictionaryWithDefault
  3
ObjectDBX Classes
 90
        0
280
     0
281
     0
  0
CLASS
  1
VISUALSTYLE
  2
AcDbVisualStyle
  3
ObjectDBX Classes
 90
     4095
280
     0
281
     0
  0
CLASS
  1
MATERIAL
  2
AcDbMaterial
  3
ObjectDBX Classes
 90
     1153
280
     0
281
     0
  0
CLASS
  1
SCALE
  2
AcDbScale
  3
ObjectDBX Classes
 90
     1153
280
     0
281
     0
  0
CLASS
  1
TABLESTYLE
  2
AcDbTableStyle
  3
ObjectDBX Classes
 90
     4095
280
     0
281
     0
  0
CLASS
  1
MLEADERSTYLE
  2
AcDbMLeaderStyle
  3
ACDB_MLEADERSTYLE_CLASS
 90
     4095
280
     0
281
     0
  0
CLASS
  1
SUN
  2
AcDbSun
  3
SCENEOE
 90
     1153
280
     0
281
     0
  0
CLASS
  1
ACDBPLACEHOLDER
  2
AcDbPlaceHolder
  3
ObjectDBX Classes
 90
        0
280
     0
281
     0
  0
CLASS
  1
LAYOUT
  2
AcDbLayout
  3
ObjectDBX Classes
 90
        0
280
     0
281
     0
  0
ENDSEC
  0
SECTION
  2
TABLES
  0
TABLE
  2
VPORT
  5
8
330
0
100
AcDbSymbolTable
 70
     1
  0
VPORT
  5
29
330
8
100
AcDbSymbolTableRecord
100
AcDbViewportTableRecord
  2
*Active
 70
     0
 10
0.0
 20
0.0
 11
1.0
 21
1.0
 12
139.7
 22
107.95
 13
0.0
 23
0.0
 14
10.0
 24
10.0
 15
10.0
 25
10.0
 16
0.0
 26
0.0
 36
1.0
 17
0.0
 27
0.0
 37
0.0
 40
215.9
 41
1.2941176471
 42
50.0
 43
0.0
 44
0.0
 50
0.0
 51
0.0
 71
     0
 72
  2000
 73
     1
 74
     3
 75
     0
 76
     0
 77
     0
 78
     0
281
     0
 65
     1
110
0.0
120
0.0
130
0.0
111
1.0
121
0.0
131
0.0
112
0.0
122
1.0
132
0.0
 79
     0
146
0.0
  0
ENDTAB
  0
TABLE
  2
LTYPE
  5
5
330
0
100
AcDbSymbolTable
 70
     6
  0
LTYPE
  5
14
330
5
100
AcDbSymbolTableRecord
100
AcDbLinetypeTableRecord
  2
ByBlock
 70
     0
  3

 72
    65
 73
     0
 40
0.0
  0
LTYPE
  5
15
330
5
100
AcDbSymbolTableRecord
100
AcDbLinetypeTableRecord
  2
ByLayer
 70
     0
  3

 72
    65
 73
     0
 40
0.0
  0
LTYPE
  5
16
330
5
100
AcDbSymbolTableRecord
100
AcDbLinetypeTableRecord
  2
Continuous
 70
     0
  3
Solid line
 72
    65
 73
     0
 40
0.0
  0
LTYPE
  5
6E
330
5
100
AcDbSymbolTableRecord
100
AcDbLinetypeTableRecord
  2
HIDDEN
 70
     0
  3
Hidden __ __ __ __ __ __ __ __ __ __ __ __ __ __
 72
    65
 73
     2
 40
1.905
 49
1.27
 74
     0
 49
-0.635
 74
     0
  0
LTYPE
  5
6F
330
5
100
AcDbSymbolTableRecord
100
AcDbLinetypeTableRecord
  2
PHANTOM
 70
     0
  3
Phantom ______  __  __  ______  __  __  ______
 72
    65
 73
     6
 40
12.7
 49
6.35
 74
     0
 49
-1.27
 74
     0
 49
1.27
 74
     0
 49
-1.27
 74
     0
 49
1.27
 74
     0
 49
-1.27
 74
     0
  0
LTYPE
  5
70
330
5
100
AcDbSymbolTableRecord
100
AcDbLinetypeTableRecord
  2
CENTER
 70
     0
  3
Center ____ _ ____ _ ____ _ ____ _ ____ _ ____
 72
    65
 73
     4
 40
10.16
 49
6.35
 74
     0
 49
-1.27
 74
     0
 49
1.27
 74
     0
 49
-1.27
 74
     0
  0
LTYPE
  5
71
330
5
100
AcDbSymbolTableRecord
100
AcDbLinetypeTableRecord
  2
CENTERX2
 70
     0
  3
Center (2x) ________  __  ________  __  _____
 72
    65
 73
     4
 40
20.32
 49
12.7
 74
     0
 49
-2.54
 74
     0
 49
2.54
 74
     0
 49
-2.54
 74
     0
  0
LTYPE
  5
72
330
5
100
AcDbSymbolTableRecord
100
AcDbLinetypeTableRecord
  2
DOT2
 70
     0
  3
Dot (.5x) ........................................
 72
    65
 73
     2
 40
0.635
 49
0.0
 74
     0
 49
-0.635
 74
     0
  0
ENDTAB
  0
TABLE
  2
LAYER
  5
2
330
0
100
AcDbSymbolTable
 70
    17
  0
LAYER
  5
10
330
2
100
AcDbSymbolTableRecord
100
AcDbLayerTableRecord
  2
0
 70
     0
 62
     7
  6
Continuous
370
    -3
390
F
  0
LAYER
  5
73
330
2
100
AcDbSymbolTableRecord
100
AcDbLayerTableRecord
  2
FORMAT
 70
     0
 62
     7
  6
Continuous
370
    -3
390
F
  0
LAYER
  5
74
330
2
100
AcDbSymbolTableRecord
100
AcDbLayerTableRecord
  2
YARDIMCI_GEOMETRI
 70
     0
 62
    -6
  6
Continuous
290
     0
370
    -3
390
F
  0
LAYER
  5
75
330
2
100
AcDbSymbolTableRecord
100
AcDbLayerTableRecord
  2
SAYFA_CERCEVESI
 70
     0
 62
     7
  6
Continuous
370
    25
390
F
  0
LAYER
  5
76
330
2
100
AcDbSymbolTableRecord
100
AcDbLayerTableRecord
  2
ANTET
 70
     0
 62
     7
  6
Continuous
370
    -3
390
F
  0
LAYER
  5
77
330
2
100
AcDbSymbolTableRecord
100
AcDbLayerTableRecord
  2
OLCU
 70
     0
 62
   150
  6
Continuous
370
    -3
390
F
  0
LAYER
  5
78
330
2
100
AcDbSymbolTableRecord
100
AcDbLayerTableRecord
  2
METIN
 70
     0
 62
    96
  6
Continuous
370
    -3
390
F
  0
LAYER
  5
79
330
2
100
AcDbSymbolTableRecord
100
AcDbLayerTableRecord
  2
BALON
 70
     0
 62
     5
  6
Continuous
370
    -3
390
F
  0
LAYER
  5
7A
330
2
100
AcDbSymbolTableRecord
100
AcDbLayerTableRecord
  2
VURGU
 70
     0
 62
     7
  6
Continuous
370
    -3
390
F
  0
LAYER
  5
7B
330
2
100
AcDbSymbolTableRecord
100
AcDbLayerTableRecord
  2
SILIK
 70
     0
 62
     7
  6
Continuous
370
    -3
390
F
  0
LAYER
  5
7C
330
2
100
AcDbSymbolTableRecord
100
AcDbLayerTableRecord
  2
MODEL
 70
     0
 62
     7
  6
Continuous
370
    -3
390
F
  0
LAYER
  5
7D
330
2
100
AcDbSymbolTableRecord
100
AcDbLayerTableRecord
  2
DETAYLANDıRMA
 70
     0
 62
   190
  6
Continuous
370
    -3
390
F
  0
LAYER
  5
7E
330
2
100
AcDbSymbolTableRecord
100
AcDbLayerTableRecord
  2
TOLERANS
 70
     0
 62
   230
  6
Continuous
370
    -3
390
F
  0
LAYER
  5
7F
330
2
100
AcDbSymbolTableRecord
100
AcDbLayerTableRecord
  2
MERKEZ_CIZGILERI
 70
     0
 62
    30
  6
Continuous
370
    -3
390
F
  0
LAYER
  5
80
330
2
100
AcDbSymbolTableRecord
100
AcDbLayerTableRecord
  2
KESIT-DETAY_CIZGILERI
 70
     0
 62
     7
  6
Continuous
370
    -3
390
F
  0
LAYER
  5
81
330
2
100
AcDbSymbolTableRecord
100
AcDbLayerTableRecord
  2
\U+041E\U+0421\U+0415\U+0412\U+042B\U+0415
 70
     0
 62
     7
  6
Continuous
370
    -3
390
F
  0
LAYER
  5
82
330
2
100
AcDbSymbolTableRecord
100
AcDbLayerTableRecord
  2
\U+0412\U+041E\U+0414\U+042F\U+041D\U+042B\U+0415_\U+0417\U+041D\U+0410\U+041A\U+0418
 70
     0
 62
    11
  6
Continuous
370
    -3
390
F
  0
ENDTAB
  0
TABLE
  2
STYLE
  5
3
330
0
100
AcDbSymbolTable
 70
     1
  0
STYLE
  5
11
330
3
100
AcDbSymbolTableRecord
100
AcDbTextStyleTableRecord
  2
Standard
 70
     0
 40
0.0
 41
1.0
 50
0.0
 71
     0
 42
3.5
  3
txt
  4

  0
ENDTAB
  0
TABLE
  2
VIEW
  5
6
330
0
100
AcDbSymbolTable
 70
     0
  0
ENDTAB
  0
TABLE
  2
UCS
  5
7
330
0
100
AcDbSymbolTable
 70
     0
  0
ENDTAB
  0
TABLE
  2
APPID
  5
9
330
0
100
AcDbSymbolTable
 70
     1
  0
APPID
  5
12
330
9
100
AcDbSymbolTableRecord
100
AcDbRegAppTableRecord
  2
ACAD
 70
     0
  0
ENDTAB
  0
TABLE
  2
DIMSTYLE
  5
A
330
0
100
AcDbSymbolTable
 70
     1
100
AcDbDimStyleTable
  0
DIMSTYLE
105
27
330
A
100
AcDbSymbolTableRecord
100
AcDbDimStyleTableRecord
  2
ISO-25
 70
     0
 41
2.5
 42
0.625
 43
3.75
 44
1.25
 73
     0
 74
     0
 77
     1
 78
     8
140
2.5
141
2.5
143
0.0393700787
147
0.625
171
     3
172
     1
178
     0
271
     2
272
     2
274
     3
278
    44
283
     0
284
     8
340
11
  0
ENDTAB
  0
TABLE
  2
BLOCK_RECORD
  5
1
330
0
100
AcDbSymbolTable
 70
     2
  0
BLOCK_RECORD
  5
1F
330
1
100
AcDbSymbolTableRecord
100
AcDbBlockTableRecord
  2
*Model_Space
340
22
  0
BLOCK_RECORD
  5
1B
330
1
100
AcDbSymbolTableRecord
100
AcDbBlockTableRecord
  2
*Paper_Space
340
1E
  0
BLOCK_RECORD
  5
23
330
1
100
AcDbSymbolTableRecord
100
AcDbBlockTableRecord
  2
*Paper_Space0
340
26
  0
BLOCK_RECORD
  5
88
330
1
100
AcDbSymbolTableRecord
100
AcDbBlockTableRecord
  2
SW_CENTERMARKSYMBOL_0
340
0
102
{BLKREFS
331
93
102
}
  0
ENDTAB
  0
ENDSEC
  0
SECTION
  2
BLOCKS
  0
BLOCK
  5
20
330
1F
100
AcDbEntity
  8
0
100
AcDbBlockBegin
  2
*Model_Space
 70
     0
 10
0.0
 20
0.0
 30
0.0
  3
*Model_Space
  1

  0
ENDBLK
  5
21
330
1F
100
AcDbEntity
  8
0
100
AcDbBlockEnd
  0
BLOCK
  5
1C
330
1B
100
AcDbEntity
 67
     1
  8
0
100
AcDbBlockBegin
  2
*Paper_Space
 70
     0
 10
0.0
 20
0.0
 30
0.0
  3
*Paper_Space
  1

  0
ENDBLK
  5
1D
330
1B
100
AcDbEntity
 67
     1
  8
0
100
AcDbBlockEnd
  0
BLOCK
  5
24
330
23
100
AcDbEntity
  8
0
100
AcDbBlockBegin
  2
*Paper_Space0
 70
     0
 10
0.0
 20
0.0
 30
0.0
  3
*Paper_Space0
  1

  0
ENDBLK
  5
25
330
23
100
AcDbEntity
  8
0
100
AcDbBlockEnd
  0
BLOCK
  5
89
330
88
100
AcDbEntity
  8
0
100
AcDbBlockBegin
  2
SW_CENTERMARKSYMBOL_0
 70
     0
 10
0.0
 20
0.0
 30
0.0
  3
SW_CENTERMARKSYMBOL_0
  1

  0
LINE
  5
8B
330
88
100
AcDbEntity
  8
FORMAT
 62
     0
100
AcDbLine
 10
0.0
 20
0.0
 30
0.0
 11
0.0
 21
2.5
 31
0.0
  0
LINE
  5
8C
330
88
100
AcDbEntity
  8
FORMAT
 62
     0
100
AcDbLine
 10
0.0
 20
0.0
 30
0.0
 11
-2.5
 21
0.0
 31
0.0
  0
LINE
  5
8D
330
88
100
AcDbEntity
  8
FORMAT
 62
     0
100
AcDbLine
 10
0.0
 20
0.0
 30
0.0
 11
0.0
 21
-2.5
 31
0.0
  0
LINE
  5
8E
330
88
100
AcDbEntity
  8
FORMAT
 62
     0
100
AcDbLine
 10
0.0
 20
0.0
 30
0.0
 11
2.5
 21
0.0
 31
0.0
  0
LINE
  5
8F
330
88
100
AcDbEntity
  8
FORMAT
 62
     0
100
AcDbLine
 10
0.0
 20
5.0
 30
0.0
 11
0.0
 21
65.0
 31
0.0
  0
LINE
  5
90
330
88
100
AcDbEntity
  8
FORMAT
 62
     0
100
AcDbLine
 10
-5.0
 20
0.0
 30
0.0
 11
-65.0
 21
0.0
 31
0.0
  0
LINE
  5
91
330
88
100
AcDbEntity
  8
FORMAT
 62
     0
100
AcDbLine
 10
0.0
 20
-5.0
 30
0.0
 11
0.0
 21
-65.0
 31
0.0
  0
LINE
  5
92
330
88
100
AcDbEntity
  8
FORMAT
 62
     0
100
AcDbLine
 10
5.0
 20
0.0
 30
0.0
 11
65.0
 21
0.0
 31
0.0
  0
ENDBLK
  5
8A
330
88
100
AcDbEntity
  8
0
100
AcDbBlockEnd
  0
ENDSEC
  0
SECTION
  2
ENTITIES
  0
CIRCLE
  5
83
330
1F
100
AcDbEntity
  8
0
  6
Continuous
 62
     7
370
    25
100
AcDbCircle
 10
136.0804557792
 20
118.8813202377
 30
0.0
 40
62.5
  0
CIRCLE
  5
84
330
1F
100
AcDbEntity
  8
0
  6
Continuous
 62
     7
370
    25
100
AcDbCircle
 10
136.0804557792
 20
118.8813202377
 30
0.0
 40
55.10000000000001
  0
CIRCLE
  5
85
330
1F
100
AcDbEntity
  8
0
  6
Continuous
 62
     7
370
    25
100
AcDbCircle
 10
136.0804557792
 20
118.8813202377
 30
0.0
 40
54.87239989017515
  0
CIRCLE
  5
86
330
1F
100
AcDbEntity
  8
0
  6
Continuous
 62
     7
370
    25
100
AcDbCircle
 10
136.0804557792
 20
118.8813202377
 30
0.0
 40
39.82760010982489
  0
CIRCLE
  5
87
330
1F
100
AcDbEntity
  8
0
  6
Continuous
 62
     7
370
    25
100
AcDbCircle
 10
136.0804557792
 20
118.8813202377
 30
0.0
 40
39.60000000000002
  0
INSERT
  5
93
330
1F
100
AcDbEntity
  8
FORMAT
 62
     7
100
AcDbBlockReference
  2
SW_CENTERMARKSYMBOL_0
 10
136.0804557792
 20
118.8813202377
 30
0.0
  0
LINE
  5
94
330
1F
100
AcDbEntity
  8
0
  6
Continuous
 62
     7
370
    25
100
AcDbLine
 10
-128.1788817444
 20
181.3813202377
 30
0.0
 11
-214.8736606189
 21
181.3813202377
 31
0.0
  0
LINE
  5
95
330
1F
100
AcDbEntity
  8
0
  6
Continuous
 62
     7
370
    25
100
AcDbLine
 10
-214.8736606189
 20
56.3813202377
 30
0.0
 11
-128.1788817444
 21
56.3813202377
 31
0.0
  0
ARC
  5
96
330
1F
100
AcDbEntity
  8
0
  6
Continuous
 62
     7
370
    25
100
AcDbCircle
 10
-128.1788823931
 20
179.3813202377
 30
0.0
 40
2.0
100
AcDbArc
 50
72.6459753637
 51
90.0
  0
ARC
  5
97
330
1F
100
AcDbEntity
  8
0
  6
Continuous
 62
     7
370
    25
100
AcDbCircle
 10
-128.1788823931
 20
58.3813202377
 30
0.0
 40
2.0
100
AcDbArc
 50
270.0
 51
287.3540246363
  0
LINE
  5
98
330
1F
100
AcDbEntity
  8
0
  6
Continuous
 62
     7
370
    25
100
AcDbLine
 10
-127.5823323825
 20
56.472358882
 30
0.0
 11
-72.1649884083
 21
73.7902798053
 31
0.0
  0
LINE
  5
99
330
1F
100
AcDbEntity
  8
0
  6
Continuous
 62
     7
370
    25
100
AcDbLine
 10
-72.1649884083
 20
163.9723606702
 30
0.0
 11
-127.5823323825
 21
181.2902815934
 31
0.0
  0
ARC
  5
9A
330
1F
100
AcDbEntity
  8
0
  6
Continuous
 62
     7
370
    25
100
AcDbCircle
 10
-71.5684387017
 20
165.8813202377
 30
0.0
 40
2.000000000000018
100
AcDbArc
 50
252.6459753637
 51
270.0
  0
ARC
  5
9B
330
1F
100
AcDbEntity
  8
0
  6
Continuous
 62
     7
370
    25
100
AcDbCircle
 10
-71.5684387017
 20
71.8813202377
 30
0.0
 40
2.000000000000018
100
AcDbArc
 50
90.0
 51
107.3540246363
  0
LINE
  5
9C
330
1F
100
AcDbEntity
  8
0
  6
Continuous
 62
     7
370
    25
100
AcDbLine
 10
7.1263422421
 20
163.8813220259
 30
0.0
 11
-71.5684371838
 21
163.8813220259
 31
0.0
  0
LINE
  5
9D
330
1F
100
AcDbEntity
  8
0
  6
Continuous
 62
     7
370
    25
100
AcDbLine
 10
-71.5684371838
 20
73.8813184496
 30
0.0
 11
7.1263422421
 21
73.8813184496
 31
0.0
  0
LINE
  5
9E
330
1F
100
AcDbEntity
  8
0
  6
Continuous
 62
     7
370
    25
100
AcDbLine
 10
-214.8736606189
 20
181.3813202377
 30
0.0
 11
-214.8736606189
 21
56.3813202377
 31
0.0
  0
LINE
  5
9F
330
1F
100
AcDbEntity
  8
0
  6
Continuous
 62
     7
370
    25
100
AcDbLine
 10
7.1263422421
 20
163.8813220259
 30
0.0
 11
7.1263422421
 21
73.8813184496
 31
0.0
  0
LINE
  5
A0
330
1F
100
AcDbEntity
  8
0
  6
Continuous
 62
     1
370
    25
100
AcDbLine
 10
-128.1788817444
 20
181.3813202377
 30
0.0
 11
-128.1788817444
 21
56.3813202377
 31
0.0
  0
LINE
  5
A1
330
1F
100
AcDbEntity
  8
0
  6
Continuous
 62
     1
370
    25
100
AcDbLine
 10
-127.5823323825
 20
181.2902815934
 30
0.0
 11
-127.5823323825
 21
56.472358882
 31
0.0
  0
LINE
  5
A2
330
1F
100
AcDbEntity
  8
0
  6
Continuous
 62
     1
370
    25
100
AcDbLine
 10
-72.1649884083
 20
163.9723606702
 30
0.0
 11
-72.1649884083
 21
73.7902798053
 31
0.0
  0
LINE
  5
A3
330
1F
100
AcDbEntity
  8
0
  6
Continuous
 62
     1
370
    25
100
AcDbLine
 10
-71.5684371838
 20
163.8813220259
 30
0.0
 11
-71.5684371838
 21
73.8813184496
 31
0.0
  0
LINE
  5
A4
330
1F
100
AcDbEntity
  8
0
  6
Continuous
 62
     7
370
    25
100
AcDbLine
 10
198.5804557792
 20
341.9629943828
 30
0.0
 11
198.5804557792
 21
428.6577732574
 31
0.0
  0
LINE
  5
A5
330
1F
100
AcDbEntity
  8
0
  6
Continuous
 62
     7
370
    25
100
AcDbLine
 10
73.5804557792
 20
428.6577732574
 30
0.0
 11
73.5804557792
 21
341.9629943828
 31
0.0
  0
ARC
  5
A6
330
1F
100
AcDbEntity
  8
0
  6
Continuous
 62
     7
370
    25
100
AcDbCircle
 10
196.5804557792
 20
341.9629950315
 30
0.0
 40
2.000000000000018
100
AcDbArc
 50
342.6459753637
 51
0.0
  0
ARC
  5
A7
330
1F
100
AcDbEntity
  8
0
  6
Continuous
 62
     7
370
    25
100
AcDbCircle
 10
75.5804557792
 20
341.9629950315
 30
0.0
 40
2.000000000000004
100
AcDbArc
 50
180.0
 51
197.3540246363
  0
LINE
  5
A8
330
1F
100
AcDbEntity
  8
0
  6
Continuous
 62
     7
370
    25
100
AcDbLine
 10
73.6714944235
 20
341.3664450209
 30
0.0
 11
90.9894153467
 21
285.9491010468
 31
0.0
  0
LINE
  5
A9
330
1F
100
AcDbEntity
  8
0
  6
Continuous
 62
     7
370
    25
100
AcDbLine
 10
181.1714962116
 20
285.9491010468
 30
0.0
 11
198.4894171349
 21
341.3664450209
 31
0.0
  0
ARC
  5
AA
330
1F
100
AcDbEntity
  8
0
  6
Continuous
 62
     7
370
    25
100
AcDbCircle
 10
183.0804557792
 20
285.3525513401
 30
0.0
 40
2.0
100
AcDbArc
 50
162.6459753637
 51
180.0
  0
ARC
  5
AB
330
1F
100
AcDbEntity
  8
0
  6
Continuous
 62
     7
370
    25
100
AcDbCircle
 10
89.0804557792
 20
285.3525513401
 30
0.0
 40
2.0
100
AcDbArc
 50
0.0
 51
17.3540246363
  0
LINE
  5
AC
330
1F
100
AcDbEntity
  8
0
  6
Continuous
 62
     7
370
    25
100
AcDbLine
 10
181.0804575673
 20
206.6577703963
 30
0.0
 11
181.0804575673
 21
285.3525498222
 31
0.0
  0
LINE
  5
AD
330
1F
100
AcDbEntity
  8
0
  6
Continuous
 62
     7
370
    25
100
AcDbLine
 10
91.080453991
 20
285.3525498222
 30
0.0
 11
91.080453991
 21
206.6577703963
 31
0.0
  0
LINE
  5
AE
330
1F
100
AcDbEntity
  8
0
  6
Continuous
 62
     7
370
    25
100
AcDbLine
 10
198.5804557792
 20
428.6577732574
 30
0.0
 11
73.5804557792
 21
428.6577732574
 31
0.0
  0
LINE
  5
AF
330
1F
100
AcDbEntity
  8
0
  6
Continuous
 62
     7
370
    25
100
AcDbLine
 10
181.0804575673
 20
206.6577703963
 30
0.0
 11
91.080453991
 21
206.6577703963
 31
0.0
  0
LINE
  5
B0
330
1F
100
AcDbEntity
  8
0
  6
Continuous
 62
     1
370
    25
100
AcDbLine
 10
198.5804557792
 20
341.9629943828
 30
0.0
 11
73.5804557792
 21
341.9629943828
 31
0.0
  0
LINE
  5
B1
330
1F
100
AcDbEntity
  8
0
  6
Continuous
 62
     1
370
    25
100
AcDbLine
 10
198.4894171349
 20
341.3664450209
 30
0.0
 11
73.6714944235
 21
341.3664450209
 31
0.0
  0
LINE
  5
B2
330
1F
100
AcDbEntity
  8
0
  6
Continuous
 62
     1
370
    25
100
AcDbLine
 10
181.1714962116
 20
285.9491010468
 30
0.0
 11
90.9894153467
 21
285.9491010468
 31
0.0
  0
LINE
  5
B3
330
1F
100
AcDbEntity
  8
0
  6
Continuous
 62
     1
370
    25
100
AcDbLine
 10
181.0804575673
 20
285.3525498222
 30
0.0
 11
91.080453991
 21
285.3525498222
 31
0.0
  0
LINE
  5
B4
330
1F
100
AcDbEntity
  8
0
  6
Continuous
 62
     7
370
    25
100
AcDbLine
 10
402.8052529011
 20
56.3813202377
 30
0.0
 11
489.5000317756
 21
56.3813202377
 31
0.0
  0
LINE
  5
B5
330
1F
100
AcDbEntity
  8
0
  6
Continuous
 62
     7
370
    25
100
AcDbLine
 10
489.5000317756
 20
181.3813202377
 30
0.0
 11
402.8052529011
 21
181.3813202377
 31
0.0
  0
ARC
  5
B6
330
1F
100
AcDbEntity
  8
0
  6
Continuous
 62
     7
370
    25
100
AcDbCircle
 10
402.8052535498
 20
58.3813202377
 30
0.0
 40
2.0
100
AcDbArc
 50
252.6459753637
 51
270.0
  0
ARC
  5
B7
330
1F
100
AcDbEntity
  8
0
  6
Continuous
 62
     7
370
    25
100
AcDbCircle
 10
402.8052535498
 20
179.3813202377
 30
0.0
 40
2.0
100
AcDbArc
 50
90.0
 51
107.3540246363
  0
LINE
  5
B8
330
1F
100
AcDbEntity
  8
0
  6
Continuous
 62
     7
370
    25
100
AcDbLine
 10
402.2087035392
 20
181.2902815934
 30
0.0
 11
346.7913595651
 21
163.9723606702
 31
0.0
  0
LINE
  5
B9
330
1F
100
AcDbEntity
  8
0
  6
Continuous
 62
     7
370
    25
100
AcDbLine
 10
346.7913595651
 20
73.7902798053
 30
0.0
 11
402.2087035392
 21
56.472358882
 31
0.0
  0
ARC
  5
BA
330
1F
100
AcDbEntity
  8
0
  6
Continuous
 62
     7
370
    25
100
AcDbCircle
 10
346.1948098584
 20
71.8813202377
 30
0.0
 40
2.000000000000001
100
AcDbArc
 50
72.6459753637
 51
90.0
  0
ARC
  5
BB
330
1F
100
AcDbEntity
  8
0
  6
Continuous
 62
     7
370
    25
100
AcDbCircle
 10
346.1948098584
 20
165.8813202377
 30
0.0
 40
2.000000000000001
100
AcDbArc
 50
270.0
 51
287.3540246363
  0
LINE
  5
BC
330
1F
100
AcDbEntity
  8
0
  6
Continuous
 62
     7
370
    25
100
AcDbLine
 10
267.5000289146
 20
73.8813184496
 30
0.0
 11
346.1948083405
 21
73.8813184496
 31
0.0
  0
LINE
  5
BD
330
1F
100
AcDbEntity
  8
0
  6
Continuous
 62
     7
370
    25
100
AcDbLine
 10
346.1948083405
 20
163.8813220259
 30
0.0
 11
267.5000289146
 21
163.8813220259
 31
0.0
  0
LINE
  5
BE
330
1F
100
AcDbEntity
  8
0
  6
Continuous
 62
     7
370
    25
100
AcDbLine
 10
489.5000317756
 20
118.8813202377
 30
0.0
 11
489.5000317756
 21
181.3813202377
 31
0.0
  0
LINE
  5
BF
330
1F
100
AcDbEntity
  8
0
  6
Continuous
 62
     7
370
    25
100
AcDbLine
 10
489.5000317756
 20
56.3813202377
 30
0.0
 11
489.5000317756
 21
118.8813202377
 31
0.0
  0
LINE
  5
C0
330
1F
100
AcDbEntity
  8
0
  6
Continuous
 62
     7
370
    25
100
AcDbLine
 10
267.5000289146
 20
118.8813202377
 30
0.0
 11
267.5000289146
 21
163.8813220259
 31
0.0
  0
LINE
  5
C1
330
1F
100
AcDbEntity
  8
0
  6
Continuous
 62
     7
370
    25
100
AcDbLine
 10
267.5000289146
 20
73.8813184496
 30
0.0
 11
267.5000289146
 21
118.8813202377
 31
0.0
  0
LINE
  5
C2
330
1F
100
AcDbEntity
  8
0
  6
Continuous
 62
     1
370
    25
100
AcDbLine
 10
402.8052529011
 20
118.8813202377
 30
0.0
 11
402.8052529011
 21
181.3813202377
 31
0.0
  0
LINE
  5
C3
330
1F
100
AcDbEntity
  8
0
  6
Continuous
 62
     1
370
    25
100
AcDbLine
 10
402.8052529011
 20
56.3813202377
 30
0.0
 11
402.8052529011
 21
118.8813202377
 31
0.0
  0
LINE
  5
C4
330
1F
100
AcDbEntity
  8
0
  6
Continuous
 62
     1
370
    25
100
AcDbLine
 10
402.2087035392
 20
118.8813202377
 30
0.0
 11
402.2087035392
 21
181.2902815934
 31
0.0
  0
LINE
  5
C5
330
1F
100
AcDbEntity
  8
0
  6
Continuous
 62
     1
370
    25
100
AcDbLine
 10
402.2087035392
 20
56.472358882
 30
0.0
 11
402.2087035392
 21
118.8813202377
 31
0.0
  0
LINE
  5
C6
330
1F
100
AcDbEntity
  8
0
  6
Continuous
 62
     1
370
    25
100
AcDbLine
 10
346.7913595651
 20
118.8813202377
 30
0.0
 11
346.7913595651
 21
163.9723606702
 31
0.0
  0
LINE
  5
C7
330
1F
100
AcDbEntity
  8
0
  6
Continuous
 62
     1
370
    25
100
AcDbLine
 10
346.7913595651
 20
73.7902798053
 30
0.0
 11
346.7913595651
 21
118.8813202377
 31
0.0
  0
LINE
  5
C8
330
1F
100
AcDbEntity
  8
0
  6
Continuous
 62
     1
370
    25
100
AcDbLine
 10
346.1948083405
 20
118.8813202377
 30
0.0
 11
346.1948083405
 21
163.8813220259
 31
0.0
  0
LINE
  5
C9
330
1F
100
AcDbEntity
  8
0
  6
Continuous
 62
     1
370
    25
100
AcDbLine
 10
346.1948083405
 20
73.8813184496
 30
0.0
 11
346.1948083405
 21
118.8813202377
 31
0.0
  0
LINE
  5
CA
330
1F
100
AcDbEntity
  8
0
  6
Continuous
 62
     7
370
    25
100
AcDbLine
 10
73.5804557792
 20
-121.2955185215
 30
0.0
 11
73.5804557792
 21
-207.990297396
 31
0.0
  0
LINE
  5
CB
330
1F
100
AcDbEntity
  8
0
  6
Continuous
 62
     7
370
    25
100
AcDbLine
 10
198.5804557792
 20
-207.990297396
 30
0.0
 11
198.5804557792
 21
-121.2955185215
 31
0.0
  0
ARC
  5
CC
330
1F
100
AcDbEntity
  8
0
  6
Continuous
 62
     7
370
    25
100
AcDbCircle
 10
75.5804557792
 20
-121.2955191702
 30
0.0
 40
2.000000000000008
100
AcDbArc
 50
162.6459753637
 51
180.0
  0
ARC
  5
CD
330
1F
100
AcDbEntity
  8
0
  6
Continuous
 62
     7
370
    25
100
AcDbCircle
 10
196.5804557792
 20
-121.2955191702
 30
0.0
 40
2.000000000000022
100
AcDbArc
 50
0.0
 51
17.3540246363
  0
LINE
  5
CE
330
1F
100
AcDbEntity
  8
0
  6
Continuous
 62
     7
370
    25
100
AcDbLine
 10
198.4894171349
 20
-120.6989691596
 30
0.0
 11
181.1714962116
 21
-65.2816251854
 31
0.0
  0
LINE
  5
CF
330
1F
100
AcDbEntity
  8
0
  6
Continuous
 62
     7
370
    25
100
AcDbLine
 10
90.9894153467
 20
-65.2816251854
 30
0.0
 11
73.6714944235
 21
-120.6989691596
 31
0.0
  0
ARC
  5
D0
330
1F
100
AcDbEntity
  8
0
  6
Continuous
 62
     7
370
    25
100
AcDbCircle
 10
89.0804557792
 20
-64.6850754788
 30
0.0
 40
2.000000000000004
100
AcDbArc
 50
342.6459753637
 51
0.0
  0
ARC
  5
D1
330
1F
100
AcDbEntity
  8
0
  6
Continuous
 62
     7
370
    25
100
AcDbCircle
 10
183.0804557792
 20
-64.6850754788
 30
0.0
 40
2.0
100
AcDbArc
 50
180.0
 51
197.3540246363
  0
LINE
  5
D2
330
1F
100
AcDbEntity
  8
0
  6
Continuous
 62
     7
370
    25
100
AcDbLine
 10
91.080453991
 20
14.009705465
 30
0.0
 11
91.080453991
 21
-64.6850739609
 31
0.0
  0
LINE
  5
D3
330
1F
100
AcDbEntity
  8
0
  6
Continuous
 62
     7
370
    25
100
AcDbLine
 10
181.0804575673
 20
-64.6850739609
 30
0.0
 11
181.0804575673
 21
14.009705465
 31
0.0
  0
LINE
  5
D4
330
1F
100
AcDbEntity
  8
0
  6
Continuous
 62
     7
370
    25
100
AcDbLine
 10
73.5804557792
 20
-207.990297396
 30
0.0
 11
198.5804557792
 21
-207.990297396
 31
0.0
  0
LINE
  5
D5
330
1F
100
AcDbEntity
  8
0
  6
Continuous
 62
     7
370
    25
100
AcDbLine
 10
91.080453991
 20
14.009705465
 30
0.0
 11
181.0804575673
 21
14.009705465
 31
0.0
  0
LINE
  5
D6
330
1F
100
AcDbEntity
  8
0
  6
Continuous
 62
     1
370
    25
100
AcDbLine
 10
73.5804557792
 20
-121.2955185215
 30
0.0
 11
198.5804557792
 21
-121.2955185215
 31
0.0
  0
LINE
  5
D7
330
1F
100
AcDbEntity
  8
0
  6
Continuous
 62
     1
370
    25
100
AcDbLine
 10
73.6714944235
 20
-120.6989691596
 30
0.0
 11
198.4894171349
 21
-120.6989691596
 31
0.0
  0
LINE
  5
D8
330
1F
100
AcDbEntity
  8
0
  6
Continuous
 62
     1
370
    25
100
AcDbLine
 10
90.9894153467
 20
-65.2816251854
 30
0.0
 11
181.1714962116
 21
-65.2816251854
 31
0.0
  0
LINE
  5
D9
330
1F
100
AcDbEntity
  8
0
  6
Continuous
 62
     1
370
    25
100
AcDbLine
 10
91.080453991
 20
-64.6850739609
 30
0.0
 11
181.0804575673
 21
-64.6850739609
 31
0.0
  0
LINE
  5
DA
330
1F
100
AcDbEntity
  8
0
  6
Continuous
 62
     7
370
    25
100
AcDbLine
 10
388.9078657227
 20
-33.3369893582
 30
0.0
 11
327.6053996871
 21
2.0521710047
 31
0.0
  0
LINE
  5
DB
330
1F
100
AcDbEntity
  8
0
  6
Continuous
 62
     7
370
    25
100
AcDbLine
 10
265.110479452
 20
-106.2039351195
 30
0.0
 11
326.4129454876
 21
-141.5930954824
 31
0.0
  0
SPLINE
  5
DC
330
1F
100
AcDbEntity
  8
0
  6
Continuous
 62
     7
370
    25
100
AcDbSpline
210
0.0
220
0.0
230
1.0
 70
     8
 71
     3
 72
    10
 73
     6
 74
     0
 42
0.000000001
 43
0.00000001
 40
0.0
 40
0.0
 40
0.0
 40
0.0
 40
0.3118557738358498
 40
0.8639454929840042
 40
1.0
 40
1.0
 40
1.0
 40
1.0
 10
393.7726617608109
 20
-37.15429137148482
 30
0.0
 10
393.5081879536108
 20
-36.88074355454501
 30
0.0
 10
392.7755064613546
 20
-36.12292400015974
 30
0.0
 10
391.8608012091309
 20
-35.33154488890045
 30
0.0
 10
391.1850165713229
 20
-34.85909437979542
 30
0.0
 10
391.0514057056785
 20
-34.76568515152356
 30
0.0
  0
SPLINE
  5
DD
330
1F
100
AcDbEntity
  8
0
  6
Continuous
 62
     7
370
    25
100
AcDbSpline
210
0.0
220
0.0
230
1.0
 70
     8
 71
     3
 72
    10
 73
     6
 74
     0
 42
0.000000001
 43
0.00000001
 40
0.0
 40
0.0
 40
0.0
 40
0.0
 40
0.2045609094786584
 40
0.8502078087290202
 40
1.0
 40
1.0
 40
1.0
 40
1.0
 10
328.7352776703054
 20
-142.7378024209315
 30
0.0
 10
328.9246621566543
 20
-142.8248402785132
 30
0.0
 10
329.711792843335
 20
-143.1865920245313
 30
0.0
 10
330.6816615677956
 20
-143.5277478666946
 30
0.0
 10
331.4824117511957
 20
-143.7271373141013
 30
0.0
 10
331.6332040947724
 20
-143.7646851070112
 30
0.0
  0
LINE
  5
DE
330
1F
100
AcDbEntity
  8
0
  6
Continuous
 62
     7
370
    25
100
AcDbLine
 10
334.5481143821
 20
-144.4026771149
 30
0.0
 11
380.2645968131
 21
-151.2921588593
 31
0.0
  0
LINE
  5
DF
330
1F
100
AcDbEntity
  8
0
  6
Continuous
 62
     7
370
    25
100
AcDbLine
 10
424.2372481185
 20
-75.1210403349
 30
0.0
 11
395.4091488144
 21
-38.9768514337
 31
0.0
  0
LINE
  5
E0
330
1F
100
AcDbEntity
  8
0
  6
Continuous
 62
     7
370
    25
100
AcDbLine
 10
475.8338191436
 20
-103.7249844596
 30
0.0
 11
422.4898279255
 21
-72.9301538158
 31
0.0
  0
LINE
  5
E1
330
1F
100
AcDbEntity
  8
0
  6
Continuous
 62
     7
370
    25
100
AcDbLine
 10
377.4934836703
 20
-150.8745521718
 30
0.0
 11
430.8374748884
 21
-181.6693828156
 31
0.0
  0
LWPOLYLINE
  5
E2
330
1F
100
AcDbEntity
  8
0
  6
Continuous
 62
     7
370
    25
100
AcDbPolyline
 90
      113
 70
   128
 43
0.0
 10
252.1637657454
 20
-77.5886355519
 10
252.2332922403
 20
-74.6870107425
 10
252.4416504543
 20
-71.7142432079
 10
252.7881844769
 20
-68.6796873405
 10
253.2718063927
 20
-65.5928883685
 10
253.8909936467
 20
-62.4635603019
 10
254.643794313
 20
-59.3015501917
 10
255.5278481682
 20
-56.1168023894
 10
256.5403656175
 20
-52.9193425762
 10
257.6781645741
 20
-49.7192268148
 10
258.9376625558
 20
-46.5265293812
 10
260.3149003929
 20
-43.3512910562
 10
261.8055422285
 20
-40.2035023943
 10
263.4048992257
 20
-37.093070266
 10
265.1079401043
 20
-34.0297767939
 10
266.9093043122
 20
-31.0232626236
 10
268.8033230982
 20
-28.0829904233
 10
270.7840405858
 20
-25.2182083839
 10
272.8452216755
 20
-22.4379304473
 10
274.9803823381
 20
-19.7509066518
 10
277.1828067368
 20
-17.1655858703
 10
279.445561715
 20
-14.690107447
 10
281.7615297236
 20
-12.3322548123
 10
284.123423309
 20
-10.0994562442
 10
286.5238107967
 20
-7.9987274564
 10
288.9551406565
 20
-6.0366818662
 10
291.4097619185
 20
-4.2194944749
 10
293.8799524898
 20
-2.5528794366
 10
296.3579395695
 20
-1.0420813145
 10
298.8359266492
 20
0.3081435471
 10
301.3061172205
 20
1.4935498353
 10
303.7607384825
 20
2.5104078288
 10
306.1920683424
 20
3.3555159429
 10
308.59245583
 20
4.0262155567
 10
310.9543494155
 20
4.520401277
 10
313.270317424
 20
4.8365083881
 10
315.5330724022
 20
4.9735512535
 10
317.7354968009
 20
4.9310955564
 10
319.8706574636
 20
4.7092757886
 10
321.9318385533
 20
4.308786883
 10
323.9125560408
 20
3.7308925769
 10
325.8065748268
 20
2.9774079199
 10
327.6079390347
 20
2.0507045939
 10
329.3109799134
 20
0.9537002667
 10
330.9103369105
 20
-0.3101535781
 10
332.4009787461
 20
-1.7368838105
 10
333.7782165833
 20
-3.3219971755
 10
335.0377145649
 20
-5.0605091926
 10
336.1755135215
 20
-6.9469502411
 10
337.1880309709
 20
-8.9753822907
 10
338.072084826
 20
-11.1394232382
 10
338.8248854923
 20
-13.4322681999
 10
339.4440727463
 20
-15.84669788
 10
339.9276946621
 20
-18.3751188735
 10
340.2742286847
 20
-21.0095750747
 10
340.4825868987
 20
-23.741777336
 10
340.5521133937
 20
-26.5631285629
 10
340.4825868987
 20
-29.4647533723
 10
340.2742286847
 20
-32.4375209069
 10
339.9276946621
 20
-35.4720767743
 10
339.4440727463
 20
-38.5588757463
 10
338.8248854923
 20
-41.6882038128
 10
338.072084826
 20
-44.8502139231
 10
337.1880309709
 20
-48.0349617254
 10
336.1755135215
 20
-51.2324215386
 10
335.0377145649
 20
-54.4325373
 10
333.7782165833
 20
-57.6252347335
 10
332.4009787461
 20
-60.8004730586
 10
330.9103369105
 20
-63.9482617205
 10
329.3109799134
 20
-67.0586938488
 10
327.6079390347
 20
-70.1219873209
 10
325.8065748268
 20
-73.1285014912
 10
323.9125560408
 20
-76.0687736915
 10
321.9318385533
 20
-78.9335557309
 10
319.8706574636
 20
-81.7138336675
 10
317.7354968009
 20
-84.400857463
 10
315.5330724022
 20
-86.9861782445
 10
313.270317424
 20
-89.4616566678
 10
310.9543494155
 20
-91.8195093025
 10
308.59245583
 20
-94.0523078706
 10
306.1920683424
 20
-96.1530366584
 10
303.7607384825
 20
-98.1150822486
 10
301.3061172205
 20
-99.9322696399
 10
298.8359266492
 20
-101.5988846782
 10
296.3579395695
 20
-103.1096828003
 10
293.8799524898
 20
-104.4599076619
 10
291.4097619185
 20
-105.6453139501
 10
288.9551406565
 20
-106.6621719436
 10
286.5238107967
 20
-107.5072800577
 10
284.123423309
 20
-108.1779796715
 10
281.7615297236
 20
-108.6721653918
 10
279.445561715
 20
-108.9882725029
 10
277.1828067368
 20
-109.1253153683
 10
274.9803823381
 20
-109.0828596712
 10
272.8452216755
 20
-108.8610399034
 10
270.7840405858
 20
-108.4605509978
 10
268.8033230982
 20
-107.8826566917
 10
266.9093043122
 20
-107.1291720347
 10
265.1079401043
 20
-106.2024687087
 10
263.4048992257
 20
-105.1054643815
 10
261.8055422285
 20
-103.8416105366
 10
260.3149003929
 20
-102.4148803043
 10
258.9376625558
 20
-100.8297669393
 10
257.6781645741
 20
-99.0912549222
 10
256.5403656175
 20
-97.2048138736
 10
255.5278481682
 20
-95.176381824
 10
254.643794313
 20
-93.0123408766
 10
253.8909936467
 20
-90.7194959149
 10
253.2718063927
 20
-88.3050662348
 10
252.7881844769
 20
-85.7766452413
 10
252.4416504543
 20
-83.1421890401
 10
252.2332922403
 20
-80.4099867788
 10
252.1637657454
 20
-77.5886355519
  0
LWPOLYLINE
  5
E3
330
1F
100
AcDbEntity
  8
0
  6
Continuous
 62
     7
370
    25
100
AcDbPolyline
 90
      106
 70
   128
 43
0.0
 10
257.3963549399
 20
-74.5679261075
 10
257.4660921691
 20
-71.8369951987
 10
257.6750509757
 20
-69.0353250268
 10
258.0224858872
 20
-66.172943746
 10
258.5071483033
 20
-63.260100758
 10
259.1273102032
 20
-60.3072191852
 10
259.8807457064
 20
-57.3248730553
 10
260.764762683
 20
-54.3237359728
 10
261.7761922169
 20
-51.3145514601
 10
262.9114149473
 20
-48.3080934159
 10
264.1663689719
 20
-45.3151235297
 10
265.5365603828
 20
-42.3463532603
 10
267.0170817064
 20
-39.4124149393
 10
268.6026382448
 20
-36.5238070205
 10
270.2875507103
 20
-33.6908712664
 10
272.0657894692
 20
-30.9237501652
 10
273.9309877134
 20
-28.2323458673
 10
275.8764678014
 20
-25.6262988946
 10
277.8952662837
 20
-23.1149311083
 10
279.9801562928
 20
-20.7072388668
 10
282.1236752023
 20
-18.4118344725
 10
284.3181483346
 20
-16.2369416114
 10
286.5557205708
 20
-14.1903436447
 10
288.8283826925
 20
-12.2793653598
 10
291.127999041
 20
-10.510847878
 10
293.446336822
 20
-8.8911195693
 10
295.7750973869
 20
-7.4259840781
 10
298.1059443855
 20
-6.1206858199
 10
300.4305338941
 20
-4.9798925886
 10
302.7405450383
 20
-4.0076900458
 10
305.0277076516
 20
-3.2075596701
 10
307.2838350378
 20
-2.5823659274
 10
309.5008494901
 20
-2.1343476229
 10
311.6708168642
 20
-1.8651040261
 10
313.7859683105
 20
-1.7756036179
 10
315.8387318843
 20
-1.8661658428
 10
317.8217582289
 20
-2.1364645329
 10
319.7279508687
 20
-2.5855347556
 10
321.5504833312
 20
-3.2117659702
 10
323.2828347089
 20
-4.0129180018
 10
324.9188015123
 20
-4.986123323
 10
326.4525279638
 20
-6.1278999853
 10
327.8785218021
 20
-7.434157704
 10
329.1916832587
 20
-8.9002176328
 10
330.3873050572
 20
-10.5208397406
 10
331.461114561
 20
-12.2902136902
 10
332.4092606018
 20
-14.2020135897
 10
333.2283529925
 20
-16.2493903923
 10
333.9154598929
 20
-18.4250175233
 10
334.4681183465
 20
-20.7211060908
 10
334.8843553541
 20
-23.1294353057
 10
335.1626747024
 20
-25.6413874622
 10
335.3020859406
 20
-28.2479661914
 10
335.3020859406
 20
-30.9398436081
 10
335.1626747024
 20
-33.7073831267
 10
334.8843553541
 20
-36.5406759628
 10
334.4681183465
 20
-39.4295821973
 10
333.9154598929
 20
-42.3637566333
 10
333.2283529925
 20
-45.3327005053
 10
332.4092606018
 20
-48.3257812523
 10
331.461114561
 20
-51.332287269
 10
330.3873050572
 20
-54.3414552819
 10
329.1916832587
 20
-57.342512935
 10
327.8785218021
 20
-60.3247168094
 10
326.4525279638
 20
-63.2773919689
 10
324.9188015123
 20
-66.1899714995
 10
323.2828347089
 20
-69.0520238868
 10
321.5504833312
 20
-71.8533062449
 10
319.7279508687
 20
-74.5837886506
 10
317.8217582289
 20
-77.2337020488
 10
315.8387318843
 20
-79.793554222
 10
313.7859683105
 20
-82.2541868208
 10
311.6708168642
 20
-84.606788291
 10
309.5008494901
 20
-86.8429356955
 10
307.2838350378
 20
-88.9546277926
 10
305.0277076516
 20
-90.9343032839
 10
302.7405450383
 20
-92.7748746525
 10
300.4305338941
 20
-94.4697542064
 10
298.1059443855
 20
-96.012874893
 10
295.7750973869
 20
-97.3987152969
 10
293.446336822
 20
-98.6223095228
 10
291.127999041
 20
-99.6792770409
 10
288.8283826925
 20
-100.56584008
 10
286.5557205708
 20
-101.2788216283
 10
284.3181483346
 20
-101.8156695753
 10
282.1236752023
 20
-102.1744614618
 10
279.9801562928
 20
-102.3539113217
 10
277.8952662837
 20
-102.3533818468
 10
275.8764678014
 20
-102.1728691745
 10
273.9309877134
 20
-101.8130256996
 10
272.0657894692
 20
-101.2751334556
 10
270.2875507103
 20
-100.5611231238
 10
268.6026382448
 20
-99.6735458942
 10
267.0170817064
 20
-98.6155825883
 10
265.5365603828
 20
-97.3910178025
 10
264.1663689719
 20
-96.0042368625
 10
262.9114149473
 20
-94.4602060516
 10
261.7761922169
 20
-92.7644482729
 10
260.764762683
 20
-90.9230354433
 10
259.8807457064
 20
-88.9425626366
 10
259.1273102032
 20
-86.8301146224
 10
258.5071483033
 20
-84.5932567382
 10
258.0224858872
 20
-82.2399930649
 10
257.6750509757
 20
-79.7787515944
 10
257.4660921691
 20
-77.2183401252
 10
257.3963549399
 20
-74.5679261075
  0
ARC
  5
E4
330
1F
100
AcDbEntity
  8
0
  6
Continuous
 62
     7
370
    25
100
AcDbCircle
 10
378.4403494637
 20
-51.4635185889
 30
0.0
 40
20.93179300924993
100
AcDbArc
 50
53.361742276
 51
59.9948802831
  0
LWPOLYLINE
  5
E5
330
1F
100
AcDbEntity
  8
0
  6
Continuous
 62
     7
370
    25
100
AcDbPolyline
 90
        3
 70
   128
 43
0.0
 10
328.588555271
 20
-142.6852178736
 10
328.2117703479
 20
-142.5183323976
 10
326.4129454876
 20
-141.5930954824
  0
ARC
  5
E6
330
1F
100
AcDbEntity
  8
0
  6
Continuous
 62
     7
370
    25
100
AcDbCircle
 10
376.5092644942
 20
-54.1006171356
 30
0.0
 40
24.20584133677328
100
AcDbArc
 50
31.0840841544
 51
44.1686265664
  0
ARC
  5
E7
330
1F
100
AcDbEntity
  8
0
  6
Continuous
 62
     7
370
    25
100
AcDbCircle
 10
338.1909133888
 20
-120.5563886599
 30
0.0
 40
24.12264620686615
100
AcDbArc
 50
254.6618994494
 51
269.2438896543
  0
LWPOLYLINE
  5
E8
330
1F
100
AcDbEntity
  8
0
  6
Continuous
 62
     7
370
    25
100
AcDbPolyline
 90
        3
 70
   128
 43
0.0
 10
424.2372481185
 20
-75.1210403349
 10
424.2452639223
 20
-75.1310974484
 10
424.4593804494
 20
-75.4055609924
  0
LWPOLYLINE
  5
E9
330
1F
100
AcDbEntity
  8
0
  6
Continuous
 62
     7
370
    25
100
AcDbPolyline
 90
       50
 70
   128
 43
0.0
 10
475.8338191436
 20
-103.7249844596
 10
476.3867146732
 20
-104.0602514238
 10
477.7860216539
 20
-105.0670637285
 10
479.0784099825
 20
-106.2384240866
 10
480.2582319812
 20
-107.5692094902
 10
481.3203299295
 20
-109.0535988723
 10
482.2600571373
 20
-110.6851035275
 10
483.0733069211
 20
-112.4565884077
 10
483.7565205064
 20
-114.3603093853
 10
484.3067107352
 20
-116.3879391114
 10
484.721472603
 20
-118.5306130245
 10
484.9989911612
 20
-120.7789616713
 10
485.1380546879
 20
-123.1231529135
 10
485.1380546879
 20
-125.5529360343
 10
484.9989911612
 20
-128.0576866067
 10
484.721472603
 20
-130.6264513606
 10
484.3067107352
 20
-133.2479991332
 10
483.7565205064
 20
-135.910864976
 10
483.0733069211
 20
-138.6034075686
 10
482.2600571373
 20
-141.3138506629
 10
481.3203299295
 20
-144.0303412577
 10
480.2582319812
 20
-146.741002829
 10
479.0784099825
 20
-149.4339817172
 10
477.7860216539
 20
-152.097501878
 10
476.3867146732
 20
-154.7199196334
 10
474.8866148214
 20
-157.2897609338
 10
473.2922759334
 20
-159.7957943572
 10
471.6106733126
 20
-162.2270622879
 10
469.8491576329
 20
-164.5729273001
 10
468.0154325479
 20
-166.8231383166
 10
466.1175178126
 20
-168.9678488559
 10
464.1637097707
 20
-170.9976885121
 10
462.1625536958
 20
-172.9037758807
 10
460.1227996688
 20
-174.6777774895
 10
458.0533673457
 20
-176.3119342221
 10
455.9633056219
 20
-177.7991058959
 10
453.8617539017
 20
-179.1327814534
 10
451.7579016386
 20
-180.3071357793
 10
449.6609482466
 20
-181.3170315506
 10
447.5800635052
 20
-182.1580512194
 10
445.5243463592
 20
-182.8265207976
 10
443.5027865998
 20
-183.319513727
 10
441.5242232114
 20
-183.6348749245
 10
439.597307493
 20
-183.771226863
 10
437.7304668389
 20
-183.7279722293
 10
435.9318632496
 20
-183.5052996233
 10
434.2093623807
 20
-183.1041862177
 10
432.5704953472
 20
-182.5263802628
 10
431.0224284306
 20
-181.774412491
 10
430.8374748884
 20
-181.6693828156
  0
LWPOLYLINE
  5
EA
330
1F
100
AcDbEntity
  8
0
  6
Continuous
 62
     1
370
    25
100
AcDbPolyline
 90
       55
 70
   128
 43
0.0
 10
390.9316230451
 20
-34.6674463428
 10
392.2128029462
 20
-35.6993139411
 10
393.7034447818
 20
-37.1260441734
 10
395.0806826189
 20
-38.7111575384
 10
396.3401806006
 20
-40.4496695555
 10
397.4779795571
 20
-42.3361106041
 10
398.4904970065
 20
-44.3645426537
 10
399.3745508616
 20
-46.5285836011
 10
400.127351528
 20
-48.8214285628
 10
400.746538782
 20
-51.2358582429
 10
401.2301606977
 20
-53.7642792364
 10
401.5766947204
 20
-56.3987354376
 10
401.7850529343
 20
-59.1309376989
 10
401.8545794293
 20
-61.9522889259
 10
401.7850529343
 20
-64.8539137352
 10
401.5766947204
 20
-67.8266812698
 10
401.2301606977
 20
-70.8612371372
 10
400.746538782
 20
-73.9480361092
 10
400.127351528
 20
-77.0773641758
 10
399.3745508616
 20
-80.239374286
 10
398.4904970065
 20
-83.4241220883
 10
397.4779795571
 20
-86.6215819015
 10
396.3401806006
 20
-89.821697663
 10
395.0806826189
 20
-93.0143950965
 10
393.7034447818
 20
-96.1896334215
 10
392.2128029462
 20
-99.3374220834
 10
390.613445949
 20
-102.4478542117
 10
388.9104050703
 20
-105.5111476838
 10
387.1090408624
 20
-108.5176618541
 10
385.2150220765
 20
-111.4579340544
 10
383.2343045889
 20
-114.3227160939
 10
381.1731234992
 20
-117.1029940304
 10
379.0379628365
 20
-119.7900178259
 10
376.8355384378
 20
-122.3753386074
 10
374.5727834597
 20
-124.8508170307
 10
372.2568154511
 20
-127.2086696654
 10
369.8949218656
 20
-129.4414682335
 10
367.494534378
 20
-131.5421970213
 10
365.0632045182
 20
-133.5042426115
 10
362.6085832561
 20
-135.3214300028
 10
360.1383926849
 20
-136.9880450411
 10
357.6604056052
 20
-138.4988431632
 10
355.1824185254
 20
-139.8490680248
 10
352.7122279542
 20
-141.034474313
 10
350.2576066922
 20
-142.0513323065
 10
347.8262768323
 20
-142.8964404206
 10
345.4258893447
 20
-143.5671400345
 10
343.0639957592
 20
-144.0613257547
 10
340.7480277506
 20
-144.3774328658
 10
338.4852727725
 20
-144.5144757313
 10
336.2828483738
 20
-144.4720200341
 10
334.1476877111
 20
-144.2502002663
 10
332.0865066214
 20
-143.8497113607
 10
330.1057891338
 20
-143.2718170547
 10
328.588555271
 20
-142.6852178736
  0
LWPOLYLINE
  5
EB
330
1F
100
AcDbEntity
  8
0
  6
Continuous
 62
     1
370
    25
100
AcDbPolyline
 90
       47
 70
   128
 43
0.0
 10
397.2394020528
 20
-41.6032513483
 10
397.8418043244
 20
-42.6453595269
 10
398.8528466341
 20
-44.6708378002
 10
399.7356123761
 20
-46.8317272686
 10
400.4873172244
 20
-49.1212306535
 10
401.1056035895
 20
-51.5321438687
 10
401.5885195456
 20
-54.0568826346
 10
401.9345504402
 20
-56.6875007324
 10
402.1426030895
 20
-59.4157242232
 10
402.2120294857
 20
-62.2329651388
 10
402.1426030895
 20
-65.1303640653
 10
401.9345504402
 20
-68.0988000319
 10
401.5885195456
 20
-71.1289368966
 10
401.1056035895
 20
-74.2112385574
 10
400.4873172244
 20
-77.3360100148
 10
399.7356123761
 20
-80.4934133437
 10
398.8528466341
 20
-83.6735224432
 10
397.8418043244
 20
-86.8663253201
 10
396.7056622658
 20
-90.0617780786
 10
395.447997672
 20
-93.249826214
 10
394.0727670785
 20
-96.420441113
 10
392.5842958056
 20
-99.5636428664
 10
390.9872674219
 20
-102.6695458962
 10
389.2867105731
 20
-105.7283756842
 10
387.4879700065
 20
-108.7305067926
 10
385.5967092049
 20
-111.6664978456
 10
383.6188787765
 20
-114.5271067356
 10
381.5606980156
 20
-117.3033347283
 10
379.4286470001
 20
-119.986446234
 10
377.2294323473
 20
-122.568000744
 10
374.9699727259
 20
-125.0398733615
 10
372.6573777823
 20
-127.3942913019
 10
370.2989257504
 20
-129.6238376931
 10
367.902033817
 20
-131.7215082272
 10
365.4742456095
 20
-133.6806940487
 10
363.0231995856
 20
-135.4952365053
 10
360.5566073016
 20
-137.1594214419
 10
358.0822297043
 20
-138.6680202637
 10
355.607852107
 20
-140.0162770058
 10
353.141259823
 20
-141.1999589019
 10
350.6902137991
 20
-142.215333948
 10
348.2624255916
 20
-143.0592127259
 10
345.8655336582
 20
-143.7289347125
 10
343.5070816263
 20
-144.2223990764
 10
341.1944866827
 20
-144.5380464239
 10
338.9350270613
 20
-144.6748903573
 10
337.8725853527
 20
-144.67693441
  0
LWPOLYLINE
  5
EC
330
1F
100
AcDbEntity
  8
0
  6
Continuous
 62
     1
370
    25
100
AcDbPolyline
 90
       42
 70
   128
 43
0.0
 10
424.4593804494
 20
-75.4055609924
 10
425.3095087257
 20
-76.6184908603
 10
426.2511378101
 20
-78.253296103
 10
427.0660313209
 20
-80.0283659595
 10
427.7506278497
 20
-81.9359372905
 10
428.3019297016
 20
-83.9676705786
 10
428.7175318722
 20
-86.1146788288
 10
428.9956115104
 20
-88.3675762371
 10
429.1349568941
 20
-90.7165096572
 10
429.1349568941
 20
-93.1512086003
 10
428.9956115104
 20
-95.6610267759
 10
428.7175318722
 20
-98.2349881003
 10
428.3019297016
 20
-100.8618404029
 10
427.7506278497
 20
-103.5300932606
 10
427.0660313209
 20
-106.2280829191
 10
426.2511378101
 20
-108.9440087966
 10
425.3095087257
 20
-111.6659958387
 10
424.2452639223
 20
-114.382140146
 10
423.0630527241
 20
-117.0805682871
 10
421.7680486568
 20
-119.7494783634
 10
420.3659125688
 20
-122.3771993216
 10
418.8627768268
 20
-124.9522411429
 10
417.2652137049
 20
-127.4633450303
 10
415.5802077262
 20
-129.8995313155
 10
413.8151293207
 20
-132.2501420424
 10
411.9776939959
 20
-134.5049040811
 10
410.075938629
 20
-136.6539549822
 10
408.118178003
 20
-138.6879015276
 10
406.112973855
 20
-140.597843683
 10
404.0690933881
 20
-142.3754350499
 10
401.9954743682
 20
-144.0128999736
 10
399.9011841302
 20
-145.5030754593
 10
397.795380682
 20
-146.839451877
 10
395.6872720811
 20
-148.0161842463
 10
393.5860763454
 20
-149.0281214624
 10
391.5009821875
 20
-149.8708441731
 10
389.4411056744
 20
-150.5406654641
 10
387.4154556951
 20
-151.0346538358
 10
385.4328896731
 20
-151.350655728
 10
383.5020753713
 20
-151.4872810673
 10
381.6314586229
 20
-151.4439401469
 10
380.2645968131
 20
-151.2921588593
  0
LWPOLYLINE
  5
ED
330
1F
100
AcDbEntity
  8
0
  6
Continuous
 62
     1
370
    25
100
AcDbPolyline
 90
       44
 70
   128
 43
0.0
 10
423.4430210514
 20
-74.1252513679
 10
424.6126198052
 20
-75.4456813495
 10
425.6747177535
 20
-76.9300707316
 10
426.6144449613
 20
-78.5615753869
 10
427.4276947451
 20
-80.3330602671
 10
428.1109083304
 20
-82.2367812447
 10
428.6610985592
 20
-84.2644109707
 10
429.075860427
 20
-86.4070848838
 10
429.3533789852
 20
-88.6554335306
 10
429.4924425119
 20
-90.9996247728
 10
429.4924425119
 20
-93.4294078936
 10
429.3533789852
 20
-95.934158466
 10
429.075860427
 20
-98.5029232199
 10
428.6610985592
 20
-101.1244709925
 10
428.1109083304
 20
-103.7873368354
 10
427.4276947451
 20
-106.4798794279
 10
426.6144449613
 20
-109.1903225222
 10
425.6747177535
 20
-111.9068131171
 10
424.6126198052
 20
-114.6174746883
 10
423.4327978065
 20
-117.3104535765
 10
422.1404094779
 20
-119.9739737373
 10
420.7411024972
 20
-122.5963914928
 10
419.2410026454
 20
-125.1662327932
 10
417.6466637574
 20
-127.6722662166
 10
415.9650611366
 20
-130.1035341472
 10
414.2035454569
 20
-132.4493991594
 10
412.3698203719
 20
-134.6996101759
 10
410.4719056366
 20
-136.8443207152
 10
408.5180975947
 20
-138.8741603714
 10
406.5169415198
 20
-140.78024774
 10
404.4771874928
 20
-142.5542493488
 10
402.4077551697
 20
-144.1884060815
 10
400.3176934459
 20
-145.6755777552
 10
398.2161417257
 20
-147.0092533127
 10
396.1122894626
 20
-148.1836076386
 10
394.0153360705
 20
-149.1935034099
 10
391.9344513292
 20
-150.0345230787
 10
389.8787341832
 20
-150.7029926569
 10
387.8571744238
 20
-151.1959855863
 10
385.8786110354
 20
-151.5113467838
 10
383.951695317
 20
-151.6476987224
 10
382.0848546629
 20
-151.6044440886
 10
380.2862510736
 20
-151.3817714827
 10
379.0050869776
 20
-151.1023514982
  0
ENDSEC
  0
SECTION
  2
OBJECTS
  0
DICTIONARY
  5
C
330
0
100
AcDbDictionary
281
     1
  3
ACAD_GROUP
350
D
  3
ACAD_LAYOUT
350
1A
  3
ACAD_MLINESTYLE
350
17
  3
ACAD_PLOTSETTINGS
350
19
  3
ACAD_PLOTSTYLENAME
350
E
  3
ACAD_SCALELIST
350
47
  0
DICTIONARY
  5
D
102
{ACAD_REACTORS
330
C
102
}
330
C
100
AcDbDictionary
281
     1
  0
DICTIONARY
  5
1A
102
{ACAD_REACTORS
330
C
102
}
330
C
100
AcDbDictionary
281
     1
  3
Layout1
350
1E
  3
Layout2
350
26
  3
Model
350
22
  0
DICTIONARY
  5
17
102
{ACAD_REACTORS
330
C
102
}
330
C
100
AcDbDictionary
281
     1
  3
Standard
350
18
  0
DICTIONARY
  5
19
102
{ACAD_REACTORS
330
C
102
}
330
C
100
AcDbDictionary
281
     1
  0
ACDBDICTIONARYWDFLT
  5
E
102
{ACAD_REACTORS
330
C
102
}
330
C
100
AcDbDictionary
281
     1
  3
Normal
350
F
100
AcDbDictionaryWithDefault
340
F
  0
DICTIONARY
  5
47
102
{ACAD_REACTORS
330
C
102
}
330
C
100
AcDbDictionary
281
     1
  3
A0
350
48
  3
A1
350
49
  3
A2
350
4A
  3
A3
350
4B
  3
A4
350
4C
  3
A5
350
4D
  3
A6
350
4E
  3
A7
350
4F
  3
A8
350
50
  3
A9
350
51
  3
B0
350
52
  3
B1
350
53
  3
B2
350
54
  3
B3
350
55
  3
B4
350
56
  3
B5
350
57
  3
B6
350
58
  3
B7
350
59
  3
B8
350
5A
  3
B9
350
5B
  3
C0
350
5C
  3
C1
350
5D
  3
C2
350
5E
  3
C3
350
5F
  3
C4
350
60
  3
C5
350
61
  3
C6
350
62
  3
C7
350
63
  3
C8
350
64
  3
C9
350
65
  3
D0
350
66
  3
D1
350
67
  3
D2
350
68
  0
LAYOUT
  5
1E
102
{ACAD_REACTORS
330
1A
102
}
330
1A
100
AcDbPlotSettings
  1

  2
none_device
  4

  6

 40
0.0
 41
0.0
 42
0.0
 43
0.0
 44
0.0
 45
0.0
 46
0.0
 47
0.0
 48
0.0
 49
0.0
140
0.0
141
0.0
142
1.0
143
1.0
 70
   688
 72
     1
 73
     0
 74
     5
  7

 75
    16
147
1.0
148
0.0
149
0.0
100
AcDbLayout
  1
Layout1
 70
     1
 71
     1
 10
0.0
 20
0.0
 11
420.0
 21
297.0
 12
0.0
 22
0.0
 32
0.0
 14
1.0000000000E+20
 24
1.0000000000E+20
 34
1.0000000000E+20
 15
-1.0000000000E+20
 25
-1.0000000000E+20
 35
-1.0000000000E+20
146
0.0
 13
0.0
 23
0.0
 33
0.0
 16
1.0
 26
0.0
 36
0.0
 17
0.0
 27
1.0
 37
0.0
 76
     0
330
1B
  0
LAYOUT
  5
26
102
{ACAD_REACTORS
330
1A
102
}
330
1A
100
AcDbPlotSettings
  1

  2
none_device
  4

  6

 40
0.0
 41
0.0
 42
0.0
 43
0.0
 44
0.0
 45
0.0
 46
0.0
 47
0.0
 48
0.0
 49
0.0
140
0.0
141
0.0
142
1.0
143
1.0
 70
   688
 72
     1
 73
     0
 74
     5
  7

 75
    16
147
1.0
148
0.0
149
0.0
100
AcDbLayout
  1
Layout2
 70
     1
 71
     2
 10
0.0
 20
0.0
 11
0.0
 21
0.0
 12
0.0
 22
0.0
 32
0.0
 14
0.0
 24
0.0
 34
0.0
 15
0.0
 25
0.0
 35
0.0
146
0.0
 13
0.0
 23
0.0
 33
0.0
 16
1.0
 26
0.0
 36
0.0
 17
0.0
 27
1.0
 37
0.0
 76
     0
330
23
  0
LAYOUT
  5
22
102
{ACAD_REACTORS
330
1A
102
}
330
1A
100
AcDbPlotSettings
  1

  2
none_device
  4
Letter_(8.50_x_11.00_Inches)
  6

 40
6.35
 41
6.35
 42
6.35000508
 43
6.35000508
 44
215.9
 45
279.4
 46
0.0
 47
0.0
 48
0.0
 49
0.0
140
0.0
141
0.0
142
1.0
143
1.0
 70
  1712
 72
     1
 73
     0
 74
     0
  7

 75
     0
147
1.0
148
0.0
149
0.0
100
AcDbLayout
  1
Model
 70
     1
 71
     0
 10
0.0
 20
0.0
 11
279.4
 21
215.9
 12
0.0
 22
0.0
 32
0.0
 14
0.0
 24
0.0
 34
0.0
 15
279.4
 25
215.9
 35
0.0
146
0.0
 13
0.0
 23
0.0
 33
0.0
 16
1.0
 26
0.0
 36
0.0
 17
0.0
 27
1.0
 37
0.0
 76
     0
330
1F
331
29
  0
MLINESTYLE
  5
18
102
{ACAD_REACTORS
330
17
102
}
330
17
100
AcDbMlineStyle
  2
Standard
 70
     0
  3

 62
   256
 51
90.0
 52
90.0
 71
     2
 49
0.5
 62
   256
  6
BYLAYER
 49
-0.5
 62
   256
  6
BYLAYER
  0
ACDBPLACEHOLDER
  5
F
102
{ACAD_REACTORS
330
E
102
}
330
E
  0
SCALE
  5
48
102
{ACAD_REACTORS
330
47
102
}
330
47
100
AcDbScale
 70
     0
300
1:1
140
1.0
141
1.0
290
     1
  0
SCALE
  5
49
102
{ACAD_REACTORS
330
47
102
}
330
47
100
AcDbScale
 70
     0
300
1:2
140
1.0
141
2.0
290
     0
  0
SCALE
  5
4A
102
{ACAD_REACTORS
330
47
102
}
330
47
100
AcDbScale
 70
     0
300
1:4
140
1.0
141
4.0
290
     0
  0
SCALE
  5
4B
102
{ACAD_REACTORS
330
47
102
}
330
47
100
AcDbScale
 70
     0
300
1:5
140
1.0
141
5.0
290
     0
  0
SCALE
  5
4C
102
{ACAD_REACTORS
330
47
102
}
330
47
100
AcDbScale
 70
     0
300
1:8
140
1.0
141
8.0
290
     0
  0
SCALE
  5
4D
102
{ACAD_REACTORS
330
47
102
}
330
47
100
AcDbScale
 70
     0
300
1:10
140
1.0
141
10.0
290
     0
  0
SCALE
  5
4E
102
{ACAD_REACTORS
330
47
102
}
330
47
100
AcDbScale
 70
     0
300
1:16
140
1.0
141
16.0
290
     0
  0
SCALE
  5
4F
102
{ACAD_REACTORS
330
47
102
}
330
47
100
AcDbScale
 70
     0
300
1:20
140
1.0
141
20.0
290
     0
  0
SCALE
  5
50
102
{ACAD_REACTORS
330
47
102
}
330
47
100
AcDbScale
 70
     0
300
1:30
140
1.0
141
30.0
290
     0
  0
SCALE
  5
51
102
{ACAD_REACTORS
330
47
102
}
330
47
100
AcDbScale
 70
     0
300
1:40
140
1.0
141
40.0
290
     0
  0
SCALE
  5
52
102
{ACAD_REACTORS
330
47
102
}
330
47
100
AcDbScale
 70
     0
300
1:50
140
1.0
141
50.0
290
     0
  0
SCALE
  5
53
102
{ACAD_REACTORS
330
47
102
}
330
47
100
AcDbScale
 70
     0
300
1:100
140
1.0
141
100.0
290
     0
  0
SCALE
  5
54
102
{ACAD_REACTORS
330
47
102
}
330
47
100
AcDbScale
 70
     0
300
2:1
140
2.0
141
1.0
290
     0
  0
SCALE
  5
55
102
{ACAD_REACTORS
330
47
102
}
330
47
100
AcDbScale
 70
     0
300
4:1
140
4.0
141
1.0
290
     0
  0
SCALE
  5
56
102
{ACAD_REACTORS
330
47
102
}
330
47
100
AcDbScale
 70
     0
300
8:1
140
8.0
141
1.0
290
     0
  0
SCALE
  5
57
102
{ACAD_REACTORS
330
47
102
}
330
47
100
AcDbScale
 70
     0
300
10:1
140
10.0
141
1.0
290
     0
  0
SCALE
  5
58
102
{ACAD_REACTORS
330
47
102
}
330
47
100
AcDbScale
 70
     0
300
100:1
140
100.0
141
1.0
290
     0
  0
SCALE
  5
59
102
{ACAD_REACTORS
330
47
102
}
330
47
100
AcDbScale
 70
     0
300
1/128" = 1'-0"
140
0.0078125
141
12.0
290
     0
  0
SCALE
  5
5A
102
{ACAD_REACTORS
330
47
102
}
330
47
100
AcDbScale
 70
     0
300
1/64" = 1'-0"
140
0.015625
141
12.0
290
     0
  0
SCALE
  5
5B
102
{ACAD_REACTORS
330
47
102
}
330
47
100
AcDbScale
 70
     0
300
1/32" = 1'-0"
140
0.03125
141
12.0
290
     0
  0
SCALE
  5
5C
102
{ACAD_REACTORS
330
47
102
}
330
47
100
AcDbScale
 70
     0
300
1/16" = 1'-0"
140
0.0625
141
12.0
290
     0
  0
SCALE
  5
5D
102
{ACAD_REACTORS
330
47
102
}
330
47
100
AcDbScale
 70
     0
300
3/32" = 1'-0"
140
0.09375
141
12.0
290
     0
  0
SCALE
  5
5E
102
{ACAD_REACTORS
330
47
102
}
330
47
100
AcDbScale
 70
     0
300
1/8" = 1'-0"
140
0.125
141
12.0
290
     0
  0
SCALE
  5
5F
102
{ACAD_REACTORS
330
47
102
}
330
47
100
AcDbScale
 70
     0
300
3/16" = 1'-0"
140
0.1875
141
12.0
290
     0
  0
SCALE
  5
60
102
{ACAD_REACTORS
330
47
102
}
330
47
100
AcDbScale
 70
     0
300
1/4" = 1'-0"
140
0.25
141
12.0
290
     0
  0
SCALE
  5
61
102
{ACAD_REACTORS
330
47
102
}
330
47
100
AcDbScale
 70
     0
300
3/8" = 1'-0"
140
0.375
141
12.0
290
     0
  0
SCALE
  5
62
102
{ACAD_REACTORS
330
47
102
}
330
47
100
AcDbScale
 70
     0
300
1/2" = 1'-0"
140
0.5
141
12.0
290
     0
  0
SCALE
  5
63
102
{ACAD_REACTORS
330
47
102
}
330
47
100
AcDbScale
 70
     0
300
3/4" = 1'-0"
140
0.75
141
12.0
290
     0
  0
SCALE
  5
64
102
{ACAD_REACTORS
330
47
102
}
330
47
100
AcDbScale
 70
     0
300
1" = 1'-0"
140
1.0
141
12.0
290
     0
  0
SCALE
  5
65
102
{ACAD_REACTORS
330
47
102
}
330
47
100
AcDbScale
 70
     0
300
1-1/2" = 1'-0"
140
1.5
141
12.0
290
     0
  0
SCALE
  5
66
102
{ACAD_REACTORS
330
47
102
}
330
47
100
AcDbScale
 70
     0
300
3" = 1'-0"
140
3.0
141
12.0
290
     0
  0
SCALE
  5
67
102
{ACAD_REACTORS
330
47
102
}
330
47
100
AcDbScale
 70
     0
300
6" = 1'-0"
140
6.0
141
12.0
290
     0
  0
SCALE
  5
68
102
{ACAD_REACTORS
330
47
102
}
330
47
100
AcDbScale
 70
     0
300
1'-0" = 1'-0"
140
12.0
141
12.0
290
     0
  0
ENDSEC
  0
EOF
